Antonio Vivaldi English Songs

Concerto In D Major Rv 93 – 2 Largo Tab Guitar Piano and Lyrics – Antonio Vivaldi

Concerto In D Major Rv 93 – 2 Largo Tab Guitar Piano and Lyrics – Antonio Vivaldi

Guitar Tuning : Standard Tuning

Posted By : Guitar Chords Lyrics

Posted On :

This song Concerto In D Major Rv 93 – 2 Largo Tab Guitar Piano and Lyrics – Antonio Vivaldi liked by 10504 user's

Difficulty: Intermediate

Type : Chords

Instrument : Guitar Or Piano

Concerto In D Major Rv 93 – 2 Largo Tab Chords Guitar Piano and Lyrics – Antonio Vivaldi
Singer: Antonio Vivaldi
Capo: no capo
Key: null
Tuning : E A D G B E

Date: Wed, 04 Mar 1998 09:53:00 -0500
From: Brian Gilner
Subject: Classical Guitar Tab for Vivaldi
 
Antonio Vivaldi - Concerto in D major (2nd movement)
 
A beautiful piece that's easy to play.
Transcription by Brian Gilner (bgilner@bellsouth.net).
No timing is indicated (sorry).
 
 
e|-----------------------------------------------------------|
B|---7-8-10---7-10-7-----------12-10-8-7-10---7-10-7---------|
G|-7--------7--------5----------------------7--------9-7-9---|
D|-0-------------------6-7-9-----------0-------------------7-|
A|-------------------0-------7---------------------------0---|
E|-----------------------------------------------------------|
 
e|----------------------7^5-7-7---------------------------------|
B|-10-10-7-----10-7-------------12^10-12-12-12--------12--------|
G|---------9-7------9-7---------10-------------9-10-9----9-10-9-|
D|----0-----------------5---------------------------------------|
A|--------------------------------------------------------------|
E|------------------------------------------9-------------------|
 
e|----------------------------------------4^5-7-5-4-2-------|
B|-10^8-10-10-10^8-10-10-10-------8-------------------5-3---|
G|--------------------------7-9-7---7-9-7-------------------|
D|----------------------------------------------------------|
A|-9--------------------------------------0-----------------|
E|-----------------------7--------7-------------------------|
 
e|---------0-------5---------------5-7-5-7-5-7----------|
B|-2-2-------2-------2-----2-2-----------------10-12-12-|
G|-----4-2-----4-2-----4-2-----4-2-------------------0--|
D|------------------------------------------------------|
A|-0---------------0-------0-------0--------------------|
E|------------------------------------------------------|
 
e|-----------------------------------|
B|-10-9-----------------10------9-10-|
G|------11-9----------9---------7-9--|
D|-----------12-11-11------11-9---11-|
A|-----------------0----------0---0--|
E|-----------------------------------|
 
e|-----------7---------------3-2-0---------2---------------|
B|-8-------8---8-----2---2-5-------3^2---------3---3---3---|
G|---9---9-------8-3---3---------------4-----4---4---4---4-|
D|-----9---------------------------------------------------|
A|-7---------------1---------------2-----2-----------------|
E|---------------------------------------------------------|
 
e|-2---------------7-------------------7-------------------|
B|-----3---3---3--------8----8----8---------8----8----8----|
G|---4---4---4---4---11---11---11---11---11---11---11---11-|
D|---------------------------------------------------------|
A|---------------------------------------------------------|
E|-----------------7---------------------------------------|
 
e|-7----------------------0-2-3-----------------------------|
B|--------------------2-3---------7-8-10---7-10-7-5---------|
G|---11-9-7-6-4-4-2-4-----------7--------7----------6-7-9---|
D|--------------2---------------0-----------------7-------7-|
A|----------------------------------------------------------|
E|-7--------------------------------------------------------|
 
e|---7---------5-5-7-5-----------------7-7-9-7------------|
B|-8---8-7^5-----------8-7-5-------------------10-9-7-----|
G|-----------7---------------7-6-4-2-0----------------9-7-|
D|-------0-------0-----------------------0----------------|
A|--------------------------------------------------------|
E|-------------------------------3------------------------|
 
e|-----------------------------------------------|
B|---------5-8---7---0---0---0---7---0---0---0---|
G|-6-----6---------------------------------------|
D|---9-7-----------7---7---7---7---7---7---7---7-|
A|-0-----------0---------------------------------|
E|-----------------------------------------------|
 
e|-0-------------------------------2-3-5-------------|
B|-----0---0---0---8---0---0---0---------3---5---3-3-|
G|---------------------------------------------------|
D|---7---7---7---7---7---7---7---7-0-----------5---4-|
A|-----------------0-----------------------0-------5-|
E|---------------------------------------------------|
X
Tags : Antonio Vivaldi Concerto In D Major Rv 93 - 2 Largo Tab

Leave a Reply