Ed Sheeran English Songs

Ed Sheeran Dive Chords Guitar Piano and Lyrics

Ed Sheeran Dive Chords Guitar Piano and Lyrics

Guitar Tuning : Standard Tuning

Posted By : Guitar Chords Lyrics

Posted On :

This song Ed Sheeran Dive Chords Guitar Piano and Lyrics liked by 6222 user's

Difficulty: Intermediate

Type : Chords

Instrument : Guitar Or Piano

[Intro]
[E] [E] [C#m7] [A] [B]
e|-------------|-------------|---------------|-------------------|
B|-------9-----|------9------|4--h5----5-----|-------------------|
G|-------9-----|------9------|4--------4-----|------8------------|
D|-------9-----|------9--4h6-|---h6----6-----|------9------------|
A|-------------|-------------|---4-----4-----|--------6-7--------|
E|-0-----------|0------------|---------------|5------------------|

[Verse]
[E] [E] [C#m7] [A] [B]
e|-------------|-------------|---------------|-------------------|
B|-------9-----|------9------|4--h5----5-----|-------------------|
G|-------9-----|------9------|4--------4-----|------8------------|
D|-------9-----|------9--4h6-|---h6----6-----|------9------------|
A|-------------|-------------|---4-----4-----|--------6-7--------|
E|-0-----------|0------------|---------------|5------------------|

[E] [E] [C#m7] [A] [B]
e|-------------|-------------|---------------|-------------------|
B|-------9-----|------9------|4--h5----5-----|-------------------|
G|-------9-----|------9------|4--------4-----|------8------------|
D|-------9-----|------9--4h6-|---h6----6-----|------9------------|
A|-------------|-------------|---4-----4-----|--------6-7--------|
E|-0-----------|0------------|---------------|5------------------|

[Pre-Cborus]
[A] [C#m] [G#m] [A]
e|---------5---|-------------|-------4-------|------5------------|
B|---------5---|--------5----|-------4-------|------5------------|
G|---------6---|--------6----|-------4-------|------6------------|
D|-------------|--4h6---6----|---------------|-------------------|
A|-------------|-------------|---------------|-------------------|
E|---5---------|-------------|-4-------------|5------------------|

[A] [C#m] [B]
e|---------5---|-------------|---------------|-------------------|
B|---------5---|--------5----|---------------|-------------------|
G|---------6---|--------6----|-------8-8-8-8-|-------------------|
D|-------------|----6---6----|-9-9-9-9-9-9-9-|-------------------|
A|-------------|-------------|-9-9-9-9-9-9-9-|-------------------|
E|-0h5---------|-------------|-7-7-7-7-7-7-7-|-------------------|

[Cborus]
[E] [E] [C#m7] [A] [B]
e|-0-----------|---0----------------|--------|------5-5------7-7-|
B|--0--------9-|----0--------9-----4|h5----5-|------5-5------7-7-|
G|---1-------9-|-----1-------9-----4|------4-|------6-6------8-8-|
D|----2------9-|------2------9-4h6--|h6----6-|------7-7------9-9-|
A|-----2-------|-------2------------|4-----4-|------7-7------9-9-|
E|------0------|--------0-----------|--------|-0-5--5-5-0-7--7-7-|

[E] [E] [C#m7] [A] [B]
e|-0-----------|---0----------------|--------|------5-5------7-7-|
B|--0--------9-|----0--------9-----4|h5----5-|------5-5------7-7-|
G|---1-------9-|-----1-------9-----4|------4-|------6-6------8-8-|
D|----2------9-|------2------9-4h6--|h6----6-|------7-7------9-9-|
A|-----2-------|-------2------------|4-----4-|------7-7------9-9-|
E|------0------|--------0-----------|--------|-0-5--5-5-0-7--7-7-|

[C#m] [B] [G#m] [E]
e|------9--x-----7--x-|----4--x----0---|-------------|-----------|
B|------9--x-----7--x-|----4--x----0---|-------------|-----------|
G|------9--x-----8--x-|----4--x----1---|-------------|-----------|
D|---------x-----9--x-|-------x----2---|-------------|-----------|
A|---------x-----9--x-|-------x----2---|-------------|-----------|
E|-7/9-----x--7-----x-|-4-----x--0-0---|-------------|-----------|

[Solo] (2:30)
[E] [E]
e|-----------------------------12-|-14b16---14b16---pb16pbr14p12-|
B|--------------------------/14---|------------------------------|
G|--------------------------------|------------------------------|
D|--------------------------------|------------------------------|
A|--------------------------------|------------------------------|
E|--------------------------------|------------------------------|

[C#m7] [A]
e|--------------------------------|------------------------------|
B|-14~------12-------------------|-12h14p12---------------------|
G|--------------------------------|---------1311p9----9h11------|
D|--------------------------------|----------------11p9----------|
A|--------------------------------|------------------------------|
E|--------------------------------|------------------------------|

[E] [E]
e|--------------------------------|-------------12-----12--14b16-|
B|--------------------------------|-------12~---12h14------------|
G|------9-9~-9~-9~---9h11---------|-11/13-----13-----------------|
D|-9/11------------9--------------|------------------------------|
A|--------------------------------|------------------------------|
E|--------------------------------|------------------------------|

[C#m7] [A]
e|-12--------12----12-------------|------------------------------|
B|----14-----12h14-12-------------|------------------------------|
G|----------------------1311-9---|-11~-9---9----9---------------|
D|--------------------------------|------11-9h11-9h11------------|
A|--------------------------------|------------------119-7---7~-|
E|--------------------------------|-------------------------9----|

[Outro Solo] (3:25)
[E] [E]
e|------------------------14/16~--|-16--(14)-12~--12-------------|
B|--------------------------------|------------------14-12-------|
G|------------------------14/16~--|---1614----------------1311-|
D|--------------------------------|------------------------------|
A|--------------------------------|------------------------------|
E|--------------------------------|------------------------------|

[C#m7] [A]
e|--------------------------------|------------------------------|
B|--------------------------------|------------------------------|
G|-9~-----------------------------|------------------------------|
D|--------------------------------|------------------------------|
A|--------------------------------|------------------------------|
E|--------------------------------|------------------------------|

Lyrics
Oh, maybe I came on too strong
Maybe I waited too long
Maybe I played my cards wrong
Oh, just a little bit wrong
Oh, baby I apologize for it
I could fall, or I could fly
Here in your aeroplane
And I could live, I could die
Hanging on the words you say
And I’ve been known to give my all
And jumping in harder than
Ten thousand rocks on the lake
So don’t call me baby
Unless you mean it
Don’t tell me you need me
If you don’t believe it
So let me know the truth
Before I dive right into you
You’re a mystery
I have traveled the world, there’s no other girl like you
No one, what’s your history? (what’s your history?)
Do you have a tendency to lead some people on?
‘Cause I heard you do, mhm
I could fall, or I could fly
Here in your aeroplane
And I could live, I could die
Hanging on the words you say
And I’ve been known to give my all
And lie awake, everyday don’t know how much I can take
So don’t call me baby
Unless you mean it
And don’t tell me you need me
If you don’t believe it
So let me know the truth
Before I dive right into you
I could fall, or I could fly
Here in your aeroplane
And I could live, I could die
Hanging on the words you say
And I’ve been known to give my all
Sitting back, looking at every mess that I made
So don’t call me baby
Unless you mean it
Don’t tell me you need me
If you don’t believe it
Let me know the truth
Before I dive right into you
Before I dive right into you
Before I dive right into you
Tags : #acoustic #acousticguitar #audio #bass #bhfyp #cdplayer #chord #chorus #classic #cover #crosley #drums #Ed Sheeran #electricguitar #guitar #guitarchords #guitarcover #guitarist #guitarlessons #guitarplayer #guitarra #guitars #harmankardon #hometeather #infocus #jazz #jbl #keyboard #lg #love #marantz #music #musician #musicians #nakamichi #notes #panasonic #projector #qacoustics #qsc #recordstoredayjakarta #sing #song #soundcraft #soundsystem #subwoofer #turntable #ukulele #video #worship #yamaha Church English Songs Piano

Leave a Reply