Ed Sheeran English Songs

Ed Sheeran Happier Chords Guitar Piano and Lyrics

Ed Sheeran Happier Chords Guitar Piano and Lyrics

Guitar Tuning : Standard Tuning

Posted By : Guitar Chords Lyrics

Posted On :

This song Ed Sheeran Happier Chords Guitar Piano and Lyrics liked by 6202 user's

Difficulty: Intermediate

Type : Chords

Instrument : Guitar Or Piano

[Intro]
e|------------x----------x--------------|------------x----------x---------------|
B|-----------(1)--------(1)-------------|-----------(1)--------(1)--------------|
G|-------0----0h2---0----0----0-----0---|-------0----0h2---0----0----0-----0----|
D|-----2---2--3-------3--0h2------2-----|-----2---2--3-------3--0h2------2------|
A|---0--------3----------3--------------|---0--------3----------3---------------|
E|------------x----------x--------------|------------x----------x---------------|

[Verse 1]
Walking down 29th and park I saw you in another’s
e|------------x----------x--------------|------------x----------x---------------|
B|-----------(1)--------(1)-------------|-----------(1)--------(1)--------------|
G|-------0----0h2---0----0----0-----0---|-------0----0h2---0----0----0-----0----|
D|-----2---2--3-------3--0h2------2-----|-----2---2--3-------3--0h2------2------|
A|---0--------3----------3--------------|---0--------3----------3---------------|
E|------------x----------x--------------|------------x----------x---------------|

only a month we’ve been apart you look happier
e|------------x----------x--------------|------------x----------x---------------|
B|-----------(1)--------(1)-------------|-----------(1)--------(1)--------------|
G|-------0----0h2---0----0----0-----0---|-------0----0h2---0----0----0-----0----|
D|-----2---2--3-------3--0h2------2-----|-----2---2--3-------3--0h2------2------|
A|---0--------3----------3--------------|---0--------3----------3---------------|
E|------------x----------x--------------|------------x----------x---------------|

I saw you walk inside a bar he said something to make you laugh
e|------------x----------x--------------|------------x----------x---------------|
B|-----------(1)--------(1)-------------|-----------(1)--------(1)--------------|
G|-------0----0h2---0----0----0-----0---|-------0----0h2---0----0----0-----0----|
D|-----2---2--3-------3--0h2------2-----|-----2---2--3-------3--0h2------2------|
A|---0--------3----------3--------------|---0--------3----------3---------------|
E|------------x----------x--------------|------------x----------x---------------|

I saw that both your smiles were twice as wide as ours(yeah)you look happier,you do
e|------------x----------x--------------|------------x----------x---------------|
B|-----------(1)--------(1)-------------|-----------(1)--------(1)--------------|
G|-------0----0h2---0----0----0-----0---|-------0----0h2---0----0----0-----0----|
D|-----2---2--3-------3--0h2------2-----|-----2---2--3-------3--0h2------2------|
A|---0--------3----------3--------------|---0--------3----------3---------------|
E|------------x----------x--------------|------------x----------x---------------|

[Pre-Cborus 1]
[Am7]Ain’t nobody h[F]urt you like I[C] hurt you[C]
[Am7]But ain’t nobody[F] love you lik[C]e I do[C]
[Am7]Promise that I[F] will not take [C]it personal,[C] baby
[Am7]If you’re moving[F] on with someone[C] new
[Cborus 1]
[Am7]‘Cause baby yo[F]u look happie[C]r, you do[C]
[Am7]My friends told[F] me one day I[C]‘ll feel it[C] too
[Am7]And until then[F] I’ll smile [C]to hide the[C] truth
[Am7]But I know[F] I was happi[C]er with yo[C]u
[Verse 2]
Sat in the corner of the room Everything’s reminding me of you
e|------------x----------x--------------|------------x----------x---------------|
B|-----------(1)--------(1)-------------|-----------(1)--------(1)--------------|
G|-------0----0h2---0----0----0-----0---|-------0----0h2---0----0----0-----0----|
D|-----2---2--3-------3--0h2------2-----|-----2---2--3-------3--0h2------2------|
A|---0--------3----------3--------------|---0--------3----------3---------------|
E|------------x----------x--------------|------------x----------x---------------|

Nursing an empty bottle and telling myself You’re happier, aren’t you?
e|------------x----------x--------------|------------x----------x---------------|
B|-----------(1)--------(1)-------------|-----------(1)--------(1)--------------|
G|-------0----0h2---0----0----0-----0---|-------0----0h2---0----0----0-----0----|
D|-----2---2--3-------3--0h2------2-----|-----2---2--3-------3--0h2------2------|
A|---0--------3----------3--------------|---0--------3----------3---------------|
E|------------x----------x--------------|------------x----------x---------------|

[Pre-Cborus 2]
Oh[Am7],Ain’t nobody [F]hurt you like [C]I hurt you[C]
[Am7]But ain’t nobody[F] you like I [C]do[C]
[Am7]I know that [F]there’s others[C] that deserve[C]
[Am7]But my darling,[F] I am still i[C]n love with you
[Cborus 2]
[Am7]But I guess [F]you look ha[C]ppier, yo[C]u do
[Am7]My friends told[F] me one day I[C]‘ll feel it[C] too
[Am7]I could try [F]to smile [C]to hide t[C]he truth
[Am7]But I know[F] I was happi[C]er with yo[C]u
[Am7]Eyah Eyeh[F] Eyeh[C]
[Am7]Eyah Eyeh[F] Eyeh[C]
[Am7]Eyah Eyeh[F] Eyehehe[C]h
[Am7]Eyah Eyeh[F] Eyeh[C]
[Cborus 3]
*one soft strum each *
Baby, [Am7]you look happ[F]ier, you [C]do[C]
[Am7]I know one day y[F]ou’d fall for[C] someone n[C]ew
[Am7]But if he break[F]s your heart [C]like lovers [C]do
[Am7]Just know that [F]I’ll be waiti[C]ng here for [C]you

 

Lyrics
Walking down 29th and Park
I saw you in another’s arms
Only a month we’ve been apart
You look happier
Saw you walk inside a bar
He said something to make you laugh
I saw that both your smiles were twice as wide as ours
Yeah, you look happier, you do
Ain’t nobody hurt you like I hurt you
But ain’t nobody love you like I do
Promise that I will not take it personal, baby
If you’re moving on with someone new
‘Cause baby you look happier, you do
My friends told me one day I’ll feel it too
And until then I’ll smile to hide the truth
But I know I was happier with you
Sat on the corner of the room
Everything’s reminding me of you
Nursing an empty bottle and telling myself you’re happier
Aren’t you?
Ain’t nobody hurt you like I hurt you
But ain’t nobody need you like I do
I know that there’s others that deserve you
But my darling, I am still in love with you
But I guess you look happier, you do
My friends told me one day I’d feel it too
I could try to smile to hide the truth
I know I was happier with you
Baby, you look happier, you do
I knew one day you’d fall for someone new
But if breaks your heart like lovers do
Just know that I’ll be waiting here for you
Tags : #acoustic #acousticguitar #audio #bass #bhfyp #cdplayer #chord #chorus #classic #cover #crosley #drums #Ed Sheeran #electricguitar #guitar #guitarchords #guitarcover #guitarist #guitarlessons #guitarplayer #guitarra #guitars #harmankardon #hometeather #infocus #jazz #jbl #keyboard #lg #love #marantz #music #musician #musicians #nakamichi #notes #panasonic #projector #qacoustics #qsc #recordstoredayjakarta #sing #song #soundcraft #soundsystem #subwoofer #turntable #ukulele #video #worship #yamaha Church English Songs Piano

Leave a Reply