Ed Sheeran English Songs

Ed Sheeran Supermarket Flowers Chords Guitar Piano and Lyrics

Ed Sheeran Supermarket Flowers Chords Guitar Piano and Lyrics

Guitar Tuning : Standard Tuning

Posted By : Guitar Chords Lyrics

Posted On :

This song Ed Sheeran Supermarket Flowers Chords Guitar Piano and Lyrics liked by 6217 user's

Difficulty: Intermediate

Type : Chords

Instrument : Guitar Or Piano

Capo 2nd Fret
[Intro]
[G] [Bm] [C]
e|----------------------------------------------------------------------------|
B|--------------3--------------3--------------1-----------1h3-----------------|
G|-----------0-----0--------0-----0--------0-----0----------------------------|
D|--------0--------------0------------ -2--------------2----------------------|
A|--------------------2--------------3--------------3-------------------------|
E|-----3----------------------------------------------------------------------|

[G] [Bm] [C]
e|----------------------------------------------------------------------------|
B|-----------3--------------3-----------1-----1-----1-------------------------|
G|--------------0--------------0-----------0-----0-----0----------------------|
D|--------0--------------0-----------2----------------------------------------|
A|--------------------2-----------3-------------------------------------------|
E|-----3----------------------------------------------------------------------|

[Verse]
[G] [Bm] [C]
e|----------------------------------------------------------------------------|
B|-----------3--------------3-----------1-----1-----1-------------------------|
G|-----------------0-----------0-----------0-----0-----0----------------------|
D|--------0--------------0-----------2----------------------------------------|
A|--------------------2-----------3-------------------------------------------|
E|-----3----------------------------------------------------------------------| x2

[Em] [D] [C] [G]
e|----------------------------------------------------------------------------|
B|-----------3-----------3-----------1-----------3----------------------------|
G|--------------0-----2-----2-----------0-----------0-------------------------|
D|--------2--------0--------------2-----------0-------------------------------|
A|-----2-----------------------3----------------------------------------------|
E|-----------------------------------------3----------------------------------|

[C] [D] [G]
e|----------------------------------------------------------------------------|
B|-----------1-----------3-----------3-----------3----------------------------|
G|--------------0-----2-----2-----------0-----------0-------------------------|
D|--------0--------0--------------0-----------0-------------------------------|
A|-----3----------------------------------------------------------------------|
E|-----------------------------3-----------3----------------------------------|

[G] [D] [C]
e|----------------------------------------------------------------------------|
B|-----------3--------------3-----------1-----1-----1-------------------------|
G|-----------------0-----------0-----------0-----0-----0----------------------|
D|--------0--------------0-----------0----------------------------------------|
A|--------------------2-----------3-------------------------------------------|
E|-----3----------------------------------------------------------------------| x2

[Em] [D] [C] [G]
e|----------------------------------------------------------------------------|
B|-----------3-----------3-----------1--------------3-------------------------|
G|--------------0-----2-----2-----------0--------0-----0----------------------|
D|--------2--------0--------------2-----------0-------------------------------|
A|-----2-----------------------3----------------------------------------------|
E|-----------------------------------------3----------------------------------|

[C] [D] [G]
e|----------------------------------------------------------------------------|
B|-----------1--------------3-----------3-----------3-------------------------|
G|--------------0--------2-----2-----------0-----------0----------------------|
D|--------2-----------0--------------0-----------0----------------------------|
A|-----3----------------------------------------------------------------------|
E|--------------------------------3-----------3-------------------------------|

[Pre-Cborus]
[Am] [C] [G] [D]
e|-----------------------------------------------------------------------------|
B|-----------1-----------1-----------3-----------3-----------------------------|
G|--------------2-----------0-----------0-----2-----2--------------------------|
D|--------2-----------2-----------0--------0-----------------------------------|
A|-----0-----------3-----------------------------------------------------------|
E|-----------------------------3-----------------------------------------------| x2

[Cborus]
[G] [Bm] [C] [D]
e|-----------------------------------------------------------------------------|
B|-----------3--------------3-----------1------------3-------------------------|
G|-----------------0-----------0-----------0------2-----2----------------------|
D|--------0--------------0-----------2---------0-------------------------------|
A|--------------------2-----------3--------------------------------------------|
E|-----3-----------------------------------------------------------------------| x2

[Em] [C] [G] [D]
e|-----------------------------------------------------------------------------|
B|-----------3-----------1-----------3-----------3-----------------------------|
G|--------------0-----------0-----------0-----2-----2--------------------------|
D|--------2-----------2-----------0--------0-----------------------------------|
A|-----2-----------3-----------------------------------------------------------|
E|-----------------------------3-----------------------------------------------| x2

[G] [Bm] [C]
e|----------------------------------------------------------------------------|
B|-----------3--------------3-----------1-----------1p3-----------------------|
G|--------------0--------------0-----------0----------------------------------|
D|--------0--------------0-----------2-----------0----------------------------|
A|--------------------2-----------3-----------3-------------------------------|
E|-----3----------------------------------------------------------------------|

[Instrumental]
[G] [Bm] [C]
e|----------------------------------------------------------------------------|
B|--------------3--------------3--------------1-----------1h3-----------------|
G|-----------0-----0--------0-----0--------0-----0----------------------------|
D|--------0--------------0------------ -2--------------2----------------------|
A|--------------------2--------------3--------------3-------------------------|
E|-----3----------------------------------------------------------------------|

[G] [Bm] [C]
e|----------------------------------------------------------------------------|
B|-----------3--------------3-----------1-----1-----1-------------------------|
G|--------------0--------------0-----------0-----0-----0----------------------|
D|--------0--------------0-----------2----------------------------------------|
A|--------------------2-----------3-------------------------------------------|
E|-----3----------------------------------------------------------------------|

[Verse]
[G] [Bm] [C]
e|----------------------------------------------------------------------------|
B|-----------3--------------3-----------1-----1-----1-------------------------|
G|--------------0--------------0-----------0-----0----------------------------|
D|--------0---------------0----------2----------------------------------------|
A|--------------------2-----------3-------------------------------------------|
E|-----3----------------------------------------------------------------------| x2

[Em] [D] [C] [G]
e|----------------------------------------------------------------------------|
B|-----------3-----------3-----------1-----------3----------------------------|
G|--------------0-----2-----2-----------0-----------0-------------------------|
D|--------2--------0--------------2-----------0-------------------------------|
A|-----2-----------------------3----------------------------------------------|
E|-----------------------------------------3----------------------------------|

[C] [D] [G]
e|----------------------------------------------------------------------------|
B|-----------1-----------3-----------3-----------3----------------------------|
G|--------------0-----2-----2-----------0-----------0-------------------------|
D|--------0--------0--------------0-----------0-------------------------------|
A|-----3----------------------------------------------------------------------|
E|-----------------------------3-----------3----------------------------------|

[Pre-Cborus]
[Am] [C] [G] [D]
e|-----------------------------------------------------------------------------|
B|-----------1-----------1-----------3-----------3-----------------------------|
G|--------------2-----------0-----------0-----2-----2--------------------------|
D|--------2-----------2-----------0--------0-----------------------------------|
A|-----0-----------3-----------------------------------------------------------|
E|-----------------------------3-----------------------------------------------| x2

[Cborus]
[G] [Bm] [C] [D]
e|-----------------------------------------------------------------------------|
B|-----------3--------------3-----------1------------3-------------------------|
G|-----------------0-----------0-----------0------2-----2----------------------|
D|--------0--------------0-----------2---------0-------------------------------|
A|--------------------2-----------3--------------------------------------------|
E|-----3-----------------------------------------------------------------------| x2

[Em] [C] [G] [D]
e|-----------------------------------------------------------------------------|
B|-----------3-----------1-----------3-----------3-----------------------------|
G|--------------0-----------0-----------0-----2-----2--------------------------|
D|--------2-----------2-----------0--------0-----------------------------------|
A|-----2-----------3-----------------------------------------------------------|
E|-----------------------------3-----------------------------------------------| x2

[G] [Bm] [C]
e|----------------------------------------------------------------------------|
B|--------------3--------------3--------------1-----------1h3-----------------|
G|-----------0-----0--------0-----0--------0-----0----------------------------|
D|--------0--------------0------------ -2--------------2----------------------|
A|--------------------2--------------3--------------3-------------------------|
E|-----3----------------------------------------------------------------------|

[Outro]
[G] [Bm] [C]
e|-----------------------------------------------------------------------------|
B|------3--------------3--------------1----------------------------------------|
G|------0--------------0--------------0----------------------------------------|
D|------0--------------0--------------2----------------------------------------|
A|---------------------2--------------3----------------------------------------|
E|------3----------------------------------------------------------------------| x2

[Em] [C] [G] [D]
e|-----------------------------------------------------------------------------|
B|------3--------------1--------------3-------------3--------------------------|
G|------0--------------0--------------0-------------2--------------------------|
D|------2--------------2--------------0-------------0--------------------------|
A|------2--------------3-------------------------------------------------------|
E|------------------------------------3----------------------------------------| x2


Ed Sheeran
I took the supermarket flowers from the windowsill
I threw the day old tea from the cup
Packed up the photo album Matthew had made
Memories of a life that’s been loved
Took the get well soon cards and stuffed animals
Poured the old ginger beer down the sink
Dad always told me, “don’t you cry when you’re down”
But mum, there’s a tear every time that I blink
Oh I’m in pieces, it’s tearing me up, but I know
A heart that’s broke is a heart that’s been loved
So I’ll sing Hallelujah
You were an angel in the shape of my mum
When I fell down you’d be there holding me up
Spread your wings as you go
And when God takes you back we’ll say Hallelujah
You’re home
I fluffed the pillows, made the beds, stacked the chairs up
Folded your nightgowns neatly in a case
John says he’d drive then put his hand on my cheek
And wiped a tear from the side of my face
I hope that I see the world as you did cause I know
A life with love is a life that’s been lived
So I’ll sing Hallelujah
You were an angel in the shape of my mum
When I fell down you’d be there holding me up
Spread your wings as you go
And when God takes you back we’ll say Hallelujah
You’re home
Hallelujah
You were an angel in the shape of my mum
You got to see the person that I have become
Spread your wing
And I know that when God took you back he said Hallelujah
You’re home

 

Tags : #acoustic #acousticguitar #audio #bass #bhfyp #cdplayer #chord #chorus #classic #cover #crosley #drums #Ed Sheeran #electricguitar #guitar #guitarchords #guitarcover #guitarist #guitarlessons #guitarplayer #guitarra #guitars #harmankardon #hometeather #infocus #jazz #jbl #keyboard #lg #love #marantz #music #musician #musicians #nakamichi #notes #panasonic #projector #qacoustics #qsc #recordstoredayjakarta #sing #song #soundcraft #soundsystem #subwoofer #turntable #ukulele #video #worship #yamaha Church English Songs Piano

Leave a Reply