English SongsFrancisco Tárrega

Gran Vals Tab Guitar Piano and Lyrics – Francisco Tárrega

September 1, 2022 | 0 Comments

Gran Vals Tab Chords Guitar Piano and Lyrics – Francisco Tárrega
Singer: Francisco Tárrega
Capo: no capo
Key: null
Tuning : E A D G B E

Francisco Tarrèga
Gran Vals in A
 
e|----|----------|---------|2--------|4--------|4-----5--|5-----4--|
B|--2-|/5--------|7--------|---2--2--|---2--2--|---2-----|---2-----|
G|----|----6--6--|---6--6--|---2--2--|---2--2--|---2-----|---2-----|
D|----|----7--7--|---7--7--|---------|---------|---------|---------|
A|----|-0--------|---------|0--------|---------|0--------|---------|
E|----|----------|0--------|---------|0--------|---------|0--------|
 
e|4p2-------|---------|2--------|4-----5--|9--------|7--------|
B|----3--3--|---------|---3--3--|---3-----|---9--9--|---9--9--|
G|----4--4--|---------|---4--4--|---4-----|---7--7--|---7--7--|
D|----------|---------|---------|---------|---------|---------|
A|2---------|2--4--5--|---------|2--------|---------|7--------|
E|----------|---------|0--------|---------|0--------|---------|
 
e|12p10-----|9p7-------|7p5-------|--------|----------|---------|
B|-------9--|----------|-------5--|------2-|/5--------|7--------|
G|----11----|----7--9--|----6-----|--------|----6--6--|---6--6--|
D|----------|----------|----------|--------|----7--7--|---7--7--|
A|----------|----------|0---------|7*------|-0--------|---------|
E|0---------|0---------|----------|--------|----------|0--------|
 
e|2--------|4--------|4--------|5--------|12--------|10--------|
B|---2--2--|---2--2--|---2--2--|---2--2--|---12--12-|---12--12-|
G|---2--2--|---2--2--|---2--2--|---2--2--|---11--11-|---11--11-|
D|---------|---------|---------|---------|0---------|0---------|
A|0--------|---------|0--------|0--------|----------|----------|
E|---------|0--------|---------|---------|----------|----------|
 
e|---------|10---------|9--------|---------|---------|7--------|
B|7--------|---10--10--|---10-10-|5--------|7--------|---9--9--|
G|---7--7--|---10--10--|---9--9--|---6--6--|---8--8--|---7--7--|
D|---9--9--|0----------|---------|---7--7--|---9--9--|---------|
A|---------|-----------|7--------|---------|---------|7--------|
E|7--------|-----------|---------|0--------|0--------|---------|
 
e|5--------|----------|
B|5--------|----------|
G|6--------|----------|
D|---------|----------|
A|----7----|----------|
E|5-----9--|-5--------|
 
 
******************************
 
| p  Pull-off
| /  Slide up
 
******************************
X
Tags : Francisco Tárrega Gran Vals Tab

Leave a Reply

%d bloggers like this: