English Songs Neil Young

Heart Of Gold Chords Guitar Piano and Lyrics – Neil Young

Heart Of Gold Chords Guitar Piano and Lyrics – Neil Young

Guitar Tuning : Standard Tuning

Posted By : Guitar Chords Lyrics

Posted On :

This song Heart Of Gold Chords Guitar Piano and Lyrics – Neil Young liked by 9734 user's

Difficulty: Intermediate

Heart Of Gold Chords Chords Guitar Piano and Lyrics – Neil Young
Singer: Neil Young
Capo: no capo
Key: Em
Tuning : E A D G B E

[Intro]
         Em7                 D        Em
e|-------0--0--0--0--0--0--|-2-----2--0----------------|
B|-------3--3--3--3--3--3--|-3-----3--0----------------|
G|-------0--0--0--0--0--0--|-2-----2--0----------------|
D|-------2--2--2--2--2--2--|-0-----0--2----------0--2--| x2
A|-------2--2--2--2--2--2--|----------2------0h2-------|
E|-0-----0--0--0--0--0--0--|----------0----------------|
 
[Harmonica Intro]
| Em C  | D  G  |
| Em C  | D  G  |
| Em C  | D  G  |
 
         Em7                 D        Em
e|-------0--0--0--0--0--0--|-2-----2--0----------------|
B|-------3--3--3--3--3--3--|-3-----3--0----------------|
G|-------0--0--0--0--0--0--|-2-----2--0----------------|
D|-------2--2--2--2--2--2--|-0-----0--2----------0--2--|
A|-------2--2--2--2--2--2--|----------2------0h2-------|
E|-0-----0--0--0--0--0--0--|----------0----------------|
 
[Verse 1]
Em          C     D            G
  I want to live,    I want to give
Em            C           D        G
  I've been a miner for a heart of gold
Em           C          D        G
  It's these expressions I never give
Em                             G
  That keep me searching for a heart of gold
C                       G
   And I'm getting old
Em                        G
  Keep me searching for a heart of gold
C                       G
   And I'm getting old
 
[Riff]
e|-----------3------------------|
B|-----------0------------------|
G|-----------0------------------|
D|-----------0------------------|
A|--3--2--0--2------------------|
E|-----------3------------------|
 
[Harmonica Solo]
| Em C  | D  G  |
| Em C  | D  G  |
| Em C  | D  G  |
| Em7   | D  Em |
 
[Verse 2]
Em             C          D              G
  I've been to Hollywood,   I've been to Redwood
Em                 C           D        G
  I've crossed the ocean for a heart of gold
Em             C        D             G
  I've been in my mind,   it's such a fine line
 
Em                              G
  That keeps me searching for a heart of gold
C                      G
   And I'm getting old
Em                              G
  That keeps me searching for a heart of gold
C                      G
   And I'm getting old
 
[Harmonica Solo]
| Em C  | D  G  |
| Em C  | D  G  |
| Em C  | D  G  |
 
[Outro]
Em7                       D        Em
  Keep me searching for a heart of gold
Em7                             D       Em
  You keep me searching and I'm growin' old
Em7                       D        Em
  Keep me searching for a heart of gold
Em                        G                  C       G
  I've been a miner for a heart of gold      ahhhhhh
 
 
************************************
 
| h  Hammer-on
 
************************************
X
Tags : Heart Of Gold Chords Neil Young

Leave a Reply

Your email address will not be published. Required fields are marked *