English Songs Kesha

Kesha | Godzilla Chords Guitar Piano and Lyrics

Kesha | Godzilla Chords Guitar Piano and Lyrics

Guitar Tuning : Standard Tuning

Posted By : Guitar Chords Lyrics

Posted On :

This song Kesha | Godzilla Chords Guitar Piano and Lyrics liked by 6042 user's

Difficulty: Intermediate

Type : Chords

Instrument : Guitar Or Piano

Standard tuning. Capo 2nd fret.
G D/F# Em Cadd9 Dsus2 C Cm Ebaug C6/9 Bm7 Asus4 Am Bm
e|3---------0---------0-----0----3----------------------------------|
B|0----3----0----3----3-----1----4----0----3----3----3----1----3----|
G|0----2----0----0----2-----0----5----0----2----2----2----2----4----| (The Am and Bm going into
D|0----0----2----2----0-----2----5----1-------------------2----4----| the Bridge are optional)
A|2---------2----3----------3----3---------3----2----0----0----2----|
E|3----2----0-------------------------------------------------------|

[Intro]
[G] [D/F#] [Em] [Cadd9] [Dsus2] [G]
e|------------|------------|------------|------------|
B|--3-0---3-3-|--0-0---0-0-|--3-0-----3-|--0-0-0-----|
G|--0-0---2-2-|--0-0---0-0-|--0-0---2-2-|--0-0-0-----|
D|------------|------------|------0-0---|------------|
A|------------|------------|3-----------|------------|
E|3-----2-----|0-----0-----|------------|3-----------|

[Verse 1]
[G]What do you [D/F#]get when you [Em]take Godzilla[Cadd9] [Dsus2]to the [G]mall?
He [G]scares all the [D/F#]children and [Em]shreds all the pillows[Cadd9]
And knocks over [Dsus2]walls[Gsus4/D]
His [Em]emerald eyes, they [Em/B]sparkle and shine
As he [C]eats the food court and [Cm]steals half my fries
[G]What do you [D/F#]get when you [Em]take Godzilla[Cadd9] [Dsus2]to the [G]mall?
[Break]
C Ebaug G
C Ebaug G
[Dsus2] [C6/9] [Bm7] [Asus4]
[Verse 2]
[G]What do you [D/F#]get when you [Em]take Godzilla[Cadd9] to [Dsus2]meet your [G]mom?
[G]He rings the [D/F#]bell and she [Em]looks out the window,[Cadd9] and calls the [Dsus2]cops[Gsus4/D]
I [Em]try to explain that [Em/B]he’s mostly tame
As [C]long as there’s pizza and [Cm]video games
[G]That’s what you [D/F#]get when you [Em]take Godzilla[Cadd9] to [Dsus2]meet your [G]mom
[Break]
C Ebaug G
C Ebaug G
[Dsus2] [C6/9] [Bm7] [G] [Am] [Bm]
[Bridge]
While [C]everyone else is [Dsus2]running and [G]screaming
[C]I just love being with [Dsus2]you
I [C]guess they don’t [Dsus2]see all the [G]things that I’m seein’
[C]That make you so uniquely [Dsus2]you, [C6/9]you, [Bm7]you, [Asus4]you
[Outro]
[G]What do you [D/F#]get when you [Em]meet Godzilla[Cadd9] and [Dsus2]fall in [G]love?

 

Tags : #acoustic #acousticguitar #audio #bass #bhfyp #cdplayer #chord #chorus #classic #cover #crosley #drums #electricguitar #guitar #guitarchords #guitarcover #guitarist #guitarlessons #guitarplayer #guitarra #guitars #harmankardon #hometeather #infocus #jazz #jbl #keyboard #lg #love #marantz #music #musician #musicians #nakamichi #notes #panasonic #projector #qacoustics #qsc #recordstoredayjakarta #sing #song #soundcraft #soundsystem #subwoofer #turntable #ukulele #video #worship #yamaha Church English Songs Godzilla Kesha Piano

Leave a Reply