English Songs Wham!

Last Christmas Intro Tab Guitar Piano and Lyrics – Wham!

Last Christmas Intro Tab Guitar Piano and Lyrics – Wham!

Guitar Tuning : Standard Tuning

Posted By : Guitar Chords Lyrics

Posted On :

This song Last Christmas Intro Tab Guitar Piano and Lyrics – Wham! liked by 9520 user's

Difficulty: Intermediate

Type : Chords

Instrument : Guitar Or Piano

Last Christmas Intro Tab Chords Guitar Piano and Lyrics – Wham!
Singer: Wham!
Capo: no capo
Key: null
Tuning : E A D G B E

WHAM - Last Christmas
 
 
   D                            D
  Last      Christmas,   I     gave     you     my     heart
e|-0----------0-----------------0--------0-------2-----------------------|
B|-----------------3--------------------------------------3--------------|
G|-----------------------2-----------------------------------------------|
D|-----------------------------------------------------------------------|
A|-----------------------------------------------------------------------|
E|-----------------------------------------------------------------------|
 
                   Bm7                             Bm7
  But     the     very    next     day,    You    gave     it      away
e|----------------0-0------2---------------------------------------------|
B|-0-------0------------------------3-------0-------2-------3-------2-0--|
G|-----------------------------------------------------------------------|
D|-----------------------------------------------------------------------|
A|-----------------------------------------------------------------------|
E|-----------------------------------------------------------------------|
 
   Em                               Em
  This         year,        to     save      me       from       tears
e|--2------------0------------------2---------3---------2-----------0----|
B|---------------------------0-------------------------------------------|
G|-----------------------------------------------------------------------|
D|-----------------------------------------------------------------------|
A|-----------------------------------------------------------------------|
E|-----------------------------------------------------------------------|
 
              A                                        A
  I'll       give      it     to    someone          special
e|-----------------------------------------------------------------------|
B|--3----------2--------3------2-----2---3------------2------------------|
G|--------------------------------------------------------2--------------|
D|-----------------------------------------------------------------------|
A|-----------------------------------------------------------------------|
E|-----------------------------------------------------------------------|
X
Tags : Last Christmas Intro Tab Wham!

Leave a Reply