Hindi Songs Jubin Nautiya

Marjaavaan – Tum Hi Aana (ver 2) Chords Guitar Piano and Lyrics Jubin Nautiya

Marjaavaan – Tum Hi Aana (ver 2) Chords Guitar Piano and Lyrics Jubin Nautiya

Guitar Tuning : Standard Tuning

Posted By : Guitar Chords Lyrics

Posted On :

This song Marjaavaan – Tum Hi Aana (ver 2) Chords Guitar Piano and Lyrics Jubin Nautiya liked by 8016 user's

Difficulty: Intermediate

Type : Chords

Instrument : Guitar Or Piano

Marjaavaan – Tum Hi Aana (ver 2) Chords Guitar Piano and Lyrics Jubin Nautiya


[Intro]
 
e|-----7-7-5----------------------5-5-------------------------------------------------
B|-5----------7-8-7-5-(*2)--------------8-7-5-7---------------7-7/8--5----now play it 
G|----------------------------7-----------------7----7--5-5-7-------------------------
D|------------------------------------------------------------------------------------
A|------------------------------------------------------------------------------------
E|------------------------------------------------------------------------------------
-------|
twice--|
-------|
-------|
-------|
-------|
 
 
[Verse 1]
TERE JANE KA GUM   AUR NA AANE KA GUM    PHIR JAMANE KA GUM
e|--------------------------------------------------------------------------------------|
B|--5-3---3--------5-3---3--------------5-3---3-----------------------------------------|
G|------5---5-4--------5---5--4-------------5---5--3------------------------------------|
D|--------------------------------------------------------------------------------------|
A|--------------------------------------------------------------------------------------|
E|--------------------------------------------------------------------------------------|
KYA KARE
e|-------------------------------------------------------------------------------|
B|-------------------------------------------------------------------------------|
G|------2---5--------------------------------------------------------------------|
D|---5---------------------------------------------------------------------------|
A|-------------------------------------------------------------------------------|
E|-------------------------------------------------------------------------------|
RAHA DEKHE NAZAR   RAAT BHAR JAG KAR    PAR TERI TOH KHABAR
e|--------------------------------------------------------------------------------------|
B|--5-3---3--------5-3---3--------------5-3---3-----------------------------------------|
G|------5---5-4--------5---5--4-------------5---5--3------------------------------------|
D|--------------------------------------------------------------------------------------|
A|--------------------------------------------------------------------------------------|
E|--------------------------------------------------------------------------------------|
    NA MILI
e|-------------------------------------------------------------------------------|
B|-------------------------------------------------------------------------------|
G|------2---5--------------------------------------------------------------------|
D|---5---------------------------------------------------------------------------|
A|-------------------------------------------------------------------------------|
E|-------------------------------------------------------------------------------|
 
[Chorus]
PLAY A SLOW DOWN STROKE ON Em (3RD CAPO)
    BAHUT AAI           GAYI YADEN
e|---------------------------------------------------------------------------------------|
B|---------------------------------------------------------------------------------------|
G|---------11-12-9------9-9-11----11-----------------------------------------------------|
D|-9-9-12----------------------12--------------------------------------------------------|
A|---------------------------------------------------------------------------------------|
E|---------------------------------------------------------------------------------------|
    MAGAR ISS BARR TUM HI AANA
e|---------------------------------------|
B|--12-12-10---13-12---------------------|
G|--------------------12-11-11H12--11-9--|
D|---------------------------------------|
A|---------------------------------------|
E|---------------------------------------|
   IRADHE FIR          SE JANE KI
e|---------------------------------------------------------------------------------------|
B|---------------------------------------------------------------------------------------|
G|---------11-12-9------9-9-11----11-----------------------------------------------------|
D|-9-9-12----------------------12--------------------------------------------------------|
A|---------------------------------------------------------------------------------------|
E|---------------------------------------------------------------------------------------|
    NAHI LANA TUM HI AANA
e|---------------------------------------|
B|--12-12-10---13-12---------------------|
G|--------------------12-11-11H12--11-9--|
D|---------------------------------------|
A|---------------------------------------|
E|---------------------------------------|
[Verse 2]
  MERE DEHELIZ SE HOKAR
e|------------------------------------------------------------------------------------|
B|----------3----5--------------------------------------------------------------------|
G|--4-4-5-5---5----4--2---------------------------------------------------------------|
D|------------------------------------------------------------------------------------|
A|------------------------------------------------------------------------------------|
E|------------------------------------------------------------------------------------|
BAHARE JAB GUJARTI HAIN
e|------------------------------------------------------------------------------------|
B|---------5---3----------------------------------------------------------------------|
G|-2-2-4-5---5----5--4----------------------------------------------------------------|
D|------------------------------------------------------------------------------------|
A|------------------------------------------------------------------------------------|
E|------------------------------------------------------------------------------------|
YAHA KYA DHUP KYA SAWAN
e|------------------------------------------------------------------------------------|
B|----------3----5--------------------------------------------------------------------|
G|--4-4-5-5---5----4--2---------------------------------------------------------------|
D|------------------------------------------------------------------------------------|
A|------------------------------------------------------------------------------------|
E|------------------------------------------------------------------------------------|
HAWAYEIN BHI BARASTI HAIN
e|------------------------------------------------------------------------------------|
B|---------5---3----------------------------------------------------------------------|
G|-2-2-4-5---5----5--4----------------------------------------------------------------|
D|------------------------------------------------------------------------------------|
A|------------------------------------------------------------------------------------|
E|------------------------------------------------------------------------------------|
HUME PUCHO KYA HOTA HAIN BINA DIL KE JIYE JANA
e|--------------------------------------------------------------|
B|--------------------------------------------------------------|
G|----------------------------4-4-2-4/5-4-----------------------|
D|-------4/5-2--2-2/4-2/0-4----------------54--4--5/7--54--2--|
A|-2-2-5--------------------------------------------------------|
E|--------------------------------------------------------------|
 
[Chorus]
 
BAHUT AAI GAYI YADEIN MAGAR ISS BAR TUM HI AANA
e|---------------------------------------------------------------|
B|---------------------------------------------------------------|
G|-----------------------------4-4-2-4/5--4----------------------|
D|-------4/5-2--2-2/4--2/0--4-----------------54--4-5/7-54--2--|
A|-2-2-5---------------------------------------------------------|
E|---------------------------------------------------------------|
IRADHE PHIR SE JANE KI NAHI LANA TUM HI AAANA
e|---------------------------------------------------------------|
B|---------------------------------------------------------------|
G|-----------------------------4-4-2-4/5--4----------------------|
D|-------4/5-2--2-2/4--2/0--4-----------------54--4-5/7-54--2--|
A|-2-2-5---------------------------------------------------------|
E|---------------------------------------------------------------|
 
 
[Bridge]
 KOI TOH RAHA WOH HOGI
e|------------------------------------------------------------------------------------|
B|----------3----5--------------------------------------------------------------------|
G|--4-4-5-5---5----4--2---------------------------------------------------------------|
D|------------------------------------------------------------------------------------|
A|------------------------------------------------------------------------------------|
E|------------------------------------------------------------------------------------|
JO MERE GHAR KO AATI HAIN
e|------------------------------------------------------------------------------------|
B|---------5---3----------------------------------------------------------------------|
G|-2-2-4-5---5----5--4----------------------------------------------------------------|
D|------------------------------------------------------------------------------------|
A|------------------------------------------------------------------------------------|
E|------------------------------------------------------------------------------------|
KARUN PICHA SADAAON KA
e|------------------------------------------------------------------------------------|
B|----------3----5--------------------------------------------------------------------|
G|--4-4-5-5---5----4--2---------------------------------------------------------------|
D|------------------------------------------------------------------------------------|
A|------------------------------------------------------------------------------------|
E|------------------------------------------------------------------------------------|
SUNO KYA KEHENA CHATI HAIN
e|------------------------------------------------------------------------------------|
B|---------5---3----------------------------------------------------------------------|
G|-2-2-4-5---5----5--4----------------------------------------------------------------|
D|------------------------------------------------------------------------------------|
A|------------------------------------------------------------------------------------|
E|------------------------------------------------------------------------------------|
TUM AAOGE HUME MILNE KHABAR YE BHI TUM HI LANA
e|--------------------------------------------------------------|
B|--------------------------------------------------------------|
G|----------------------------4-4-2-4/5-4-----------------------|
D|-------4/5-2--2-2/4-2/0-4----------------54--4--5/7--54--2--|
A|-2-2-5--------------------------------------------------------|
E|--------------------------------------------------------------|
 
[Chorus]
 
BAHUT AAI GAYI YADEIN MAGAR ISS BAR TUM HI AANA
e|--------------------------------------------------------------|
B|--------------------------------------------------------------|
G|----------------------------4-4-2-4/5-4-----------------------|
D|-------4/5-2--2-2/4-2/0-4----------------54--4--5/7--54--2--|
A|-2-2-5--------------------------------------------------------|
E|--------------------------------------------------------------|
 
 
IRADHE PHIR SE JANE KI NAHI LANA TUM HI AAANA
e|--------------------------------------------------------------|
B|--------------------------------------------------------------|
G|----------------------------4-4-2-4/5-4-----------------------|
D|-------4/5-2--2-2/4-2/0-4----------------54--4--5/7--54--2--|
A|-2-2-5--------------------------------------------------------|
E|--------------------------------------------------------------|
 
 
 
BEST OF LUCK*
 
 
 
************************************
 
| /  Slide up
|   Slide down
 
************************************
X

Tags : #instagood #instagram #like #love #music #musician #singer #song arijit arijitsingh arijitsinghlive arijitsinghsongs armaanmalik atifaslam Bollywood bollywoodsongs darshanraval hindisongs india indiansinger indiansingers jubin jubinnautiyal jubinnautiyallive jubinnautiyalmusic nehakakkar shreyaghoshal Songs tseries

Leave a Reply