Hindi Songs Momina Mustehsan

Momina Mustehsan Afreen Afreen Acoustic (ver 3) Chords Guitar Piano and Lyrics

Momina Mustehsan Afreen Afreen Acoustic (ver 3) Chords Guitar Piano and Lyrics

Guitar Tuning : Standard Tuning

Posted By : Guitar Chords Lyrics

Posted On :

This song Momina Mustehsan Afreen Afreen Acoustic (ver 3) Chords Guitar Piano and Lyrics liked by 8111 user's

Difficulty: Intermediate

Type : Chords

Instrument : Guitar Or Piano

Momina Mustehsan Afreen Afreen Acoustic (ver 3) Chords Guitar Piano and Lyrics


Coke Studio Live - https://www.youtube.com/watch?v=kw4tT7SCmaY
 
[Intro]
A   Dsus2  /  E    A/ A   Dsus2  /  E    /
A   Dsus2  /  E    A/ A   Dsus2  / Dsus2  E    /( play solo while this palyed)
 
e|------------------------------------------------------------------------------------------------|
B|------------------------------------------------------------------------------------------12----|
G|---------9------------11--------------9-----------------------9-------------11------11/13-------|
D|----9/11----11--11/12-----12----9/11-----119--9/11-----9/11-----11--11/12------12--------------|
A|------------------------------------------------------------------------------------------------|
E|------------------------------------------------------------------------------------------------|
 
A A A A   A F#m Bm  E  A
 
 
[Verse]
E               A
Aisa dekha nahi khoobsurat koi
E               A
Jism jaise Ajanta ki murat koi
A
Jism jaise nigahon pe jadoo koi
A
Jism nagma koi jism khushboo koi
Dsus2           A
Jism jaise mehakti hui chandni
Dsus2           A
Jism jaise machalti hui ragini
     C#m       Dsus2    E
Jism jaise ke khilta hua ik chaman
     C#m     Dsus2     E
Jism jaise ke suraj ki pehli kiran
     F#m          Bm
Jism tarsha hua dilkasho dilnashin
C#m    Dsus2  Bm        E      E
Sandli sandli marmari marmari
 
 
[Chorus]
A                       A
Husane jaana ki tareef mumkin nahi
A                       A
Husane jaana ki tareef mumkin nahi
A      E7      Bm      E
Afreen afreen afreen afreen
A                     E
Tu bhi dekhe agar toh kahe humnashin
C#m      Dsus2  Bm      E
Afreen afreen afreen afreen
A                       A
Husane jaana ki tareef mumkin nahi
A                F#m    Bm    E
Husane jaana ki tareef mumkin nahi
 
 
 
A F#m Bm  E  A
 
e|----------------------------------------------------------------------------------------------------------|
B|------------------------------7--9----------------------------------------------10--12-12/14--12- 10-9-10-|
G|-/6--7-9--7--6----6--6--7--9-------9p76-7--6---6h7p6------------------6--9-11----------------------------|
D|---------------9--------------------------------------9-7-9------7--9-------------------------------------|
A|-------------------------------------------------------------7h9------------------------------------------|
E|----------------------------------------------------------------------------------------------------------|
 
 
[Momina]: Additional Lyrics
A                    F#m
Jaane kaise baandhe tu ne akhiyon ke dor
D                  E
Man mera khincha chala aaya teri or
A                   C#
Mere chehre ke subh zulfon ki shaam
F#m                      D          E
Mera sab kuchh hai piya ab se tere naam
Bm          D
Nazron ne teri chhuwa
Bm          D
To hai yih jaadu hua
Bm               E
Hone lagi hoon main haseen
 
A   F#m              E   A
Aafreen Aafreen..... Aafireen (X2)
Bm   C#m              D  E
Aafreen Aafreen..... Aafireen (x2)
 
  lead                                            x2                                             x2
e|---------5--7--4--5---2-4---0----0--------0-----0--|-------------9--10--7-9--5-7--4---------4--|
B|------/5-------5------3-----2--2----2--2-----2-----|--5/ nowhere-10-----9----7----5--5---5-----|
G|---------------------------------------------------|-----------------------------------4-------|
D|---------------------------------------------------|-------------------------------------------|
A|---------------------------------------------------|-------------------------------------------|
E|---------------------------------------------------|-------------------------------------------|
 
 
 
[Verse]
E               A
Chehra ik phool ki tarah shadaab hai
E               A
Chehra uska hai ya koi mehtaab hai
       F#m                  E     A
Chehra jaise ghazal chehra jaane ghazal
        F#m   A           D     A
Chehra jaise kalli chehra jaise kanwal
       D                 E
Chehra jaise tasavur bhi tasveer bhi
       D                   E
Chehra ik khaab bhi chehra tabeer bhi
       C#m   Dsus2   E
Chehra koi aliflailvi dastaan
       C#m   Dsus2   E
Chehra ik pal yakeen chehra ik pal gumah
         F#m             C#       D        Bm
Chehra jaisa ke chehra kahin bhi nahi..
    E      Dsus2    Bm          E
Mahrooh mahrooh mehjabin mehjabin
 
 
[Chorus]
       A        E      F#m
Husane jaana ki tareef mumkin nahi
       A        E      D
Husane jaana ki tareef mumkin nahi
A      E7      Bm      E
Afreen afreen afreen afreen
A                     E
Tu bhi dekhe agar toh kahe humnashin
C#m      Dsus2  Bm      E
Afreen afreen afreen afreen
A                       A
Husane jaana ki tareef mumkin nahi
A                F#m    Bm    E
Husane jaana ki tareef mumkin nahi
 
fast ...                           strumming (DUUD U DD )
 
 
A D E  A A  D E  x2
F#m  E D  A F#m  E D A Bm  C#m D  A F#m  E D  A x2
F#m  E F#m  E F#m  E D     A
X

Tags : ahadrazamir aimabaig aimankhan alizafar asimazhar atifaslam ayeshaomar ayezakhan bilalsaeed farhansaeed fawadkhan haniaamir hareemfarooq hinaaltaf Hindi Songs iqraaziz mahirakhan mawrahocane mayaali mehwishhayat minalkhan Momina Mustehsan mominamustehsan muneebbutt pakistan sabaqamar sabooraly sajalaly sanajaved urwahocane zaranoorabbas

Leave a Reply