English Songs Misc Christmas

Santa Claus Is Coming To Town Tab Guitar Piano and Lyrics – Misc Christmas

Santa Claus Is Coming To Town Tab Guitar Piano and Lyrics – Misc Christmas

Guitar Tuning : Standard Tuning

Posted By : Guitar Chords Lyrics

Posted On :

This song Santa Claus Is Coming To Town Tab Guitar Piano and Lyrics – Misc Christmas liked by 9747 user's

Difficulty: Intermediate

Type : Chords

Instrument : Guitar Or Piano

Santa Claus Is Coming To Town Tab Chords Guitar Piano and Lyrics – Misc Christmas
Singer: Misc Christmas
Capo: no capo
Key: D
Tuning : E A D G B E

e|----------------------------------------------------------------|
B|----------------0-1-1-------------------------------------------|
G|------0-0---0-2---------------0-0-0-2-0----------0--------------|
D|0-2-3-------------------0-2-3-----------3-3----2-----2-0-3------|
A|---------------------------------------------------3--------2-3-|
E|----------------------------------------------------------------|
 
 
e|--------------------------------0-------------------------------|
B|1-3-1-0-1-------1-3-1-0-1-----3---3-2-3-0-0-0-0-1-3-1-0---------|
G|----------2-2-------------2-----------------------------2-0-----|
D|-------------------------------------------------------------0--|
A|----------------------------------------------------------------|
E|----------------------------------------------------------------|
 
 
e|----------------------------------------------------------------|
B|----------------0-1-1---------------------------------------3-1-|
G|------0-0---0-2---------------0-0-0-2-0---------0---------------|
D|0-2-3-------------------0-2-3-----------3-3---2-----2-0-3-------|
A|--------------------------------------------------3-------------|
E|----------------------------------------------------------------|
X
Tags : Misc Christmas Santa Claus Is Coming To Town Tab

Leave a Reply