English Songs Sasha

Sasha | There She Goes Chords Guitar Piano and Lyrics

Sasha | There She Goes Chords Guitar Piano and Lyrics

Guitar Tuning : Standard Tuning

Posted By : Guitar Chords Lyrics

Posted On :

This song Sasha | There She Goes Chords Guitar Piano and Lyrics liked by 5998 user's

Difficulty: Intermediate

Type : Chords

Instrument : Guitar Or Piano

Intro: x 2
e|--6-6-9-9-6--------6-6-------------------------------------------------|
H|------------9-9--9-----9--6-6-6-9-9-6----------------------------------|
G|--------------------------------------6-6?6-8-8-6----------------------|
D|-----------------------------------------------------------------------|
A|-----------------------------------------------------------------------|
E|-----------------------------------------------------------------------|
Strophe 1:
[D#] An ordinary day[G#], like any other day
[C#] It’s not my birthday[F#], I’ll take it anyway
[D#] A quite common [G#]scene, the daily routine [C#]Seems to strike ag[F#]ain
But [D#]then, showing up to [G#]turn the tide
She c[C#]omes in sight, to pr[F#]ove me a liar
She’s [D#]ringing my bell, turning [G#]everything else to [A#]black and white
Refrain:
[D#]There she [G#]goes, [C#]far away, so [F#]close
[D#]There she [G#]goes, like [A#]uhuhlala, uhuhlala
[D#]There she [G#]goes, like a [C#]miracle on the [F#]road
D# G# G# --------------

And god only knows, where she goes
Intro x 1
Strophe 2:
[D#] She’s like a stereo [G#]best case scenario
And [C#]if I’d shoot a [F#]film, she’d get a cameo
[D#] My heart skips a [G#]beat and while it does
She’s [C#]rushing by, like a [F#]natural high
[D#]No, no, no, there’s no [G#]need for speeding
[C#]Slow, slow, slow, please my [F#]heart keep beating
The [D#]whole street’s yelling [G#]hale
to the queen of the [A#]day
Refrain:
[D#]There she [G#]goes, [C#]far away, so [F#]close
[D#]There she [G#]goes, like [A#]uhuhlala, uhuhlala
[D#]There she [G#]goes, like a [C#]miracle on the [F#]road
D# G# G# --------------

And god only knows, where she goes
Instrumental:
e|--6-6-9-9-6--------6-6-------------------------------------------------|
H|------------9-9--9-----9--6-6-6-9-9-6----------------------------------|
G|--------------------------------------6-6?6-8-8-6----------------------|
D|-----------------------------------------------------------------------|
A|-----------------------------------------------------------------------|
E|-----------------------------------------------------------------------|
e|--6-6-9-9-6--------6-6------6-6---6-6-10-6------6-10-6-13--------------|
H|------------9-9--9-----9--------6-----------6--------------------------|
G|-----------------------------------------------------------------------|
D|-----------------------------------------------------------------------|
A|-----------------------------------------------------------------------|
E|-----------------------------------------------------------------------|

Refrain:
[D#]There she [G#]goes, [C#]far away, so [F#]close
[D#]There she [G#]goes, like [A#]uhuhlala, uhuhlala
[D#]There she [G#]goes, like a [C#]miracle on the [F#]road
And god only [D#]knows,[G#] god only know[D#]s [G#]
D# G# G# --------------
Tags : English Songs Sasha There She Goes

Leave a Reply